ISO-10303-21;
HEADER;
FILE_DESCRIPTION((''),'2;1');
FILE_NAME('PRT0003','2025-09-22T',('Administrator'),(''),
'PRO/ENGINEER BY PARAMETRIC TECHNOLOGY CORPORATION, 2010280',
'PRO/ENGINEER BY PARAMETRIC TECHNOLOGY CORPORATION, 2010280','');
FILE_SCHEMA(('CONFIG_CONTROL_DESIGN'));
ENDSEC;
DATA;
#1=DIRECTION('',(0.E0,0.E0,-1.E0));
#2=VECTOR('',#1,5.500000000007E-1);
#3=CARTESIAN_POINT('',(0.E0,-1.549999999999E0,1.25E0));
#4=LINE('',#3,#2);
#5=DIRECTION('',(0.E0,-1.E0,0.E0));
#6=VECTOR('',#5,3.999999999978E-1);
#7=CARTESIAN_POINT('',(0.E0,-1.549999999999E0,6.999999999993E-1));
#8=LINE('',#7,#6);
#9=DIRECTION('',(0.E0,0.E0,-1.E0));
#10=VECTOR('',#9,1.400000000003E0);
#11=CARTESIAN_POINT('',(0.E0,-1.949999999997E0,6.999999999993E-1));
#12=LINE('',#11,#10);
#13=DIRECTION('',(0.E0,1.E0,0.E0));
#14=VECTOR('',#13,3.999999999978E-1);
#15=CARTESIAN_POINT('',(0.E0,-1.949999999997E0,-7.000000000040E-1));
#16=LINE('',#15,#14);
#17=DIRECTION('',(0.E0,0.E0,-1.E0));
#18=VECTOR('',#17,5.499999999993E-1);
#19=CARTESIAN_POINT('',(0.E0,-1.549999999999E0,-7.000000000040E-1));
#20=LINE('',#19,#18);
#21=DIRECTION('',(0.E0,1.E0,0.E0));
#22=VECTOR('',#21,3.100000000002E0);
#23=CARTESIAN_POINT('',(0.E0,-1.549999999999E0,-1.250000000003E0));
#24=LINE('',#23,#22);
#25=DIRECTION('',(0.E0,0.E0,1.E0));
#26=VECTOR('',#25,5.499999999993E-1);
#27=CARTESIAN_POINT('',(0.E0,1.550000000003E0,-1.250000000003E0));
#28=LINE('',#27,#26);
#29=DIRECTION('',(0.E0,1.E0,0.E0));
#30=VECTOR('',#29,4.000000000015E-1);
#31=CARTESIAN_POINT('',(0.E0,1.550000000003E0,-7.000000000040E-1));
#32=LINE('',#31,#30);
#33=DIRECTION('',(0.E0,0.E0,1.E0));
#34=VECTOR('',#33,1.400000000003E0);
#35=CARTESIAN_POINT('',(0.E0,1.950000000004E0,-7.000000000040E-1));
#36=LINE('',#35,#34);
#37=DIRECTION('',(0.E0,-1.E0,0.E0));
#38=VECTOR('',#37,4.000000000015E-1);
#39=CARTESIAN_POINT('',(0.E0,1.950000000004E0,6.999999999993E-1));
#40=LINE('',#39,#38);
#41=DIRECTION('',(0.E0,0.E0,1.E0));
#42=VECTOR('',#41,5.500000000007E-1);
#43=CARTESIAN_POINT('',(0.E0,1.550000000003E0,6.999999999993E-1));
#44=LINE('',#43,#42);
#45=DIRECTION('',(0.E0,-1.E0,0.E0));
#46=VECTOR('',#45,3.100000000002E0);
#47=CARTESIAN_POINT('',(0.E0,1.550000000003E0,1.25E0));
#48=LINE('',#47,#46);
#49=CARTESIAN_POINT('',(1.1E0,-1.549999999999E0,-1.150000000003E0));
#50=DIRECTION('',(0.E0,-1.E0,0.E0));
#51=DIRECTION('',(0.E0,0.E0,-1.E0));
#52=AXIS2_PLACEMENT_3D('',#49,#50,#51);
#54=DIRECTION('',(1.E0,0.E0,0.E0));
#55=VECTOR('',#54,1.E-1);
#56=CARTESIAN_POINT('',(0.E0,-1.549999999999E0,-7.000000000040E-1));
#57=LINE('',#56,#55);
#58=DIRECTION('',(1.E0,0.E0,0.E0));
#59=VECTOR('',#58,1.1E0);
#60=CARTESIAN_POINT('',(0.E0,-1.549999999999E0,1.25E0));
#61=LINE('',#60,#59);
#62=CARTESIAN_POINT('',(1.1E0,-1.549999999999E0,1.15E0));
#63=DIRECTION('',(0.E0,-1.E0,0.E0));
#64=DIRECTION('',(1.E0,0.E0,0.E0));
#65=AXIS2_PLACEMENT_3D('',#62,#63,#64);
#67=DIRECTION('',(0.E0,0.E0,-1.E0));
#68=VECTOR('',#67,2.300000000003E0);
#69=CARTESIAN_POINT('',(1.2E0,-1.549999999999E0,1.15E0));
#70=LINE('',#69,#68);
#71=CARTESIAN_POINT('',(1.1E0,1.550000000003E0,-1.150000000003E0));
#72=DIRECTION('',(0.E0,1.E0,0.E0));
#73=DIRECTION('',(1.E0,0.E0,0.E0));
#74=AXIS2_PLACEMENT_3D('',#71,#72,#73);
#76=DIRECTION('',(0.E0,0.E0,1.E0));
#77=VECTOR('',#76,2.300000000003E0);
#78=CARTESIAN_POINT('',(1.2E0,1.550000000003E0,-1.150000000003E0));
#79=LINE('',#78,#77);
#80=CARTESIAN_POINT('',(1.1E0,1.550000000003E0,1.15E0));
#81=DIRECTION('',(0.E0,1.E0,0.E0));
#82=DIRECTION('',(0.E0,0.E0,1.E0));
#83=AXIS2_PLACEMENT_3D('',#80,#81,#82);
#85=DIRECTION('',(1.E0,0.E0,0.E0));
#86=VECTOR('',#85,1.E-1);
#87=CARTESIAN_POINT('',(0.E0,1.550000000003E0,6.999999999993E-1));
#88=LINE('',#87,#86);
#89=DIRECTION('',(1.E0,0.E0,0.E0));
#90=VECTOR('',#89,1.1E0);
#91=CARTESIAN_POINT('',(0.E0,1.550000000003E0,-1.250000000003E0));
#92=LINE('',#91,#90);
#93=DIRECTION('',(0.E0,1.E0,0.E0));
#94=VECTOR('',#93,3.100000000002E0);
#95=CARTESIAN_POINT('',(1.2E0,-1.549999999999E0,-1.150000000003E0));
#96=LINE('',#95,#94);
#97=DIRECTION('',(0.E0,-1.E0,0.E0));
#98=VECTOR('',#97,3.100000000002E0);
#99=CARTESIAN_POINT('',(1.2E0,1.550000000003E0,1.15E0));
#100=LINE('',#99,#98);
#101=CARTESIAN_POINT('',(1.2E0,0.E0,0.E0));
#102=DIRECTION('',(1.E0,0.E0,0.E0));
#103=DIRECTION('',(0.E0,1.E0,0.E0));
#104=AXIS2_PLACEMENT_3D('',#101,#102,#103);
#106=CARTESIAN_POINT('',(1.2E0,0.E0,0.E0));
#107=DIRECTION('',(1.E0,0.E0,0.E0));
#108=DIRECTION('',(0.E0,-1.E0,0.E0));
#109=AXIS2_PLACEMENT_3D('',#106,#107,#108);
#111=DIRECTION('',(0.E0,-1.E0,0.E0));
#112=VECTOR('',#111,3.100000000002E0);
#113=CARTESIAN_POINT('',(1.1E0,1.550000000003E0,1.25E0));
#114=LINE('',#113,#112);
#115=DIRECTION('',(1.E0,0.E0,0.E0));
#116=VECTOR('',#115,1.1E0);
#117=CARTESIAN_POINT('',(0.E0,1.550000000003E0,1.25E0));
#118=LINE('',#117,#116);
#119=CARTESIAN_POINT('',(1.4E0,0.E0,0.E0));
#120=DIRECTION('',(1.E0,0.E0,0.E0));
#121=DIRECTION('',(0.E0,1.E0,0.E0));
#122=AXIS2_PLACEMENT_3D('',#119,#120,#121);
#124=DIRECTION('',(1.E0,0.E0,-1.672005747698E-12));
#125=VECTOR('',#124,2.E-1);
#126=CARTESIAN_POINT('',(1.2E0,7.5E-1,0.E0));
#127=LINE('',#126,#125);
#128=CARTESIAN_POINT('',(1.4E0,6.5E-1,0.E0));
#129=DIRECTION('',(0.E0,0.E0,1.E0));
#130=DIRECTION('',(1.E0,0.E0,0.E0));
#131=AXIS2_PLACEMENT_3D('',#128,#129,#130);
#133=CARTESIAN_POINT('',(1.5E0,0.E0,0.E0));
#134=DIRECTION('',(1.E0,0.E0,0.E0));
#135=DIRECTION('',(0.E0,1.E0,0.E0));
#136=AXIS2_PLACEMENT_3D('',#133,#134,#135);
#138=CARTESIAN_POINT('',(1.5E0,0.E0,0.E0));
#139=DIRECTION('',(1.E0,0.E0,0.E0));
#140=DIRECTION('',(0.E0,-1.E0,0.E0));
#141=AXIS2_PLACEMENT_3D('',#138,#139,#140);
#143=CARTESIAN_POINT('',(1.4E0,-6.5E-1,0.E0));
#144=DIRECTION('',(0.E0,0.E0,-1.E0));
#145=DIRECTION('',(1.E0,0.E0,0.E0));
#146=AXIS2_PLACEMENT_3D('',#143,#144,#145);
#148=CARTESIAN_POINT('',(1.4E0,0.E0,0.E0));
#149=DIRECTION('',(1.E0,0.E0,0.E0));
#150=DIRECTION('',(0.E0,-1.E0,0.E0));
#151=AXIS2_PLACEMENT_3D('',#148,#149,#150);
#153=DIRECTION('',(1.E0,0.E0,1.671806369291E-12));
#154=VECTOR('',#153,2.E-1);
#155=CARTESIAN_POINT('',(1.2E0,-7.5E-1,0.E0));
#156=LINE('',#155,#154);
#157=DIRECTION('',(0.E0,-1.E0,0.E0));
#158=VECTOR('',#157,4.000000000015E-1);
#159=CARTESIAN_POINT('',(1.E-1,1.950000000004E0,6.999999999993E-1));
#160=LINE('',#159,#158);
#161=DIRECTION('',(1.E0,0.E0,0.E0));
#162=VECTOR('',#161,1.E-1);
#163=CARTESIAN_POINT('',(0.E0,1.950000000004E0,6.999999999993E-1));
#164=LINE('',#163,#162);
#165=DIRECTION('',(0.E0,0.E0,1.E0));
#166=VECTOR('',#165,1.400000000003E0);
#167=CARTESIAN_POINT('',(1.E-1,-1.549999999999E0,-7.000000000040E-1));
#168=LINE('',#167,#166);
#169=DIRECTION('',(0.E0,0.E0,-1.E0));
#170=VECTOR('',#169,1.400000000003E0);
#171=CARTESIAN_POINT('',(1.E-1,1.550000000003E0,6.999999999993E-1));
#172=LINE('',#171,#170);
#173=DIRECTION('',(0.E0,-1.E0,0.E0));
#174=VECTOR('',#173,3.999999999978E-1);
#175=CARTESIAN_POINT('',(1.E-1,-1.549999999999E0,6.999999999993E-1));
#176=LINE('',#175,#174);
#177=DIRECTION('',(1.E0,1.110223024625E-14,0.E0));
#178=VECTOR('',#177,1.E-1);
#179=CARTESIAN_POINT('',(0.E0,-1.549999999999E0,6.999999999993E-1));
#180=LINE('',#179,#178);
#181=DIRECTION('',(0.E0,0.E0,-1.E0));
#182=VECTOR('',#181,1.400000000003E0);
#183=CARTESIAN_POINT('',(1.E-1,-1.949999999997E0,6.999999999993E-1));
#184=LINE('',#183,#182);
#185=DIRECTION('',(1.E0,0.E0,0.E0));
#186=VECTOR('',#185,1.E-1);
#187=CARTESIAN_POINT('',(0.E0,-1.949999999997E0,6.999999999993E-1));
#188=LINE('',#187,#186);
#189=DIRECTION('',(0.E0,1.E0,0.E0));
#190=VECTOR('',#189,3.999999999978E-1);
#191=CARTESIAN_POINT('',(1.E-1,-1.949999999997E0,-7.000000000040E-1));
#192=LINE('',#191,#190);
#193=DIRECTION('',(1.E0,0.E0,0.E0));
#194=VECTOR('',#193,1.E-1);
#195=CARTESIAN_POINT('',(0.E0,-1.949999999997E0,-7.000000000040E-1));
#196=LINE('',#195,#194);
#197=DIRECTION('',(0.E0,1.E0,0.E0));
#198=VECTOR('',#197,4.000000000015E-1);
#199=CARTESIAN_POINT('',(1.E-1,1.550000000003E0,-7.000000000040E-1));
#200=LINE('',#199,#198);
#201=DIRECTION('',(1.E0,0.E0,0.E0));
#202=VECTOR('',#201,1.E-1);
#203=CARTESIAN_POINT('',(0.E0,1.550000000003E0,-7.000000000040E-1));
#204=LINE('',#203,#202);
#205=DIRECTION('',(0.E0,0.E0,1.E0));
#206=VECTOR('',#205,1.400000000003E0);
#207=CARTESIAN_POINT('',(1.E-1,1.950000000004E0,-7.000000000040E-1));
#208=LINE('',#207,#206);
#209=DIRECTION('',(1.E0,0.E0,0.E0));
#210=VECTOR('',#209,1.E-1);
#211=CARTESIAN_POINT('',(0.E0,1.950000000004E0,-7.000000000040E-1));
#212=LINE('',#211,#210);
#213=DIRECTION('',(0.E0,1.E0,0.E0));
#214=VECTOR('',#213,3.100000000002E0);
#215=CARTESIAN_POINT('',(1.1E0,-1.549999999999E0,-1.250000000003E0));
#216=LINE('',#215,#214);
#217=DIRECTION('',(1.E0,0.E0,0.E0));
#218=VECTOR('',#217,1.1E0);
#219=CARTESIAN_POINT('',(0.E0,-1.549999999999E0,-1.250000000003E0));
#220=LINE('',#219,#218);
#221=CARTESIAN_POINT('',(0.E0,-1.549999999999E0,1.25E0));
#222=CARTESIAN_POINT('',(0.E0,-1.549999999999E0,6.999999999993E-1));
#223=VERTEX_POINT('',#221);
#224=VERTEX_POINT('',#222);
#225=CARTESIAN_POINT('',(0.E0,-1.949999999997E0,6.999999999993E-1));
#226=VERTEX_POINT('',#225);
#227=CARTESIAN_POINT('',(0.E0,-1.949999999997E0,-7.000000000040E-1));
#228=VERTEX_POINT('',#227);
#229=CARTESIAN_POINT('',(0.E0,-1.549999999999E0,-7.000000000040E-1));
#230=VERTEX_POINT('',#229);
#231=CARTESIAN_POINT('',(0.E0,-1.549999999999E0,-1.250000000003E0));
#232=VERTEX_POINT('',#231);
#233=CARTESIAN_POINT('',(0.E0,1.550000000003E0,-1.250000000003E0));
#234=VERTEX_POINT('',#233);
#235=CARTESIAN_POINT('',(0.E0,1.550000000003E0,-7.000000000040E-1));
#236=VERTEX_POINT('',#235);
#237=CARTESIAN_POINT('',(0.E0,1.950000000004E0,-7.000000000040E-1));
#238=VERTEX_POINT('',#237);
#239=CARTESIAN_POINT('',(0.E0,1.950000000004E0,6.999999999993E-1));
#240=VERTEX_POINT('',#239);
#241=CARTESIAN_POINT('',(0.E0,1.550000000003E0,6.999999999993E-1));
#242=VERTEX_POINT('',#241);
#243=CARTESIAN_POINT('',(0.E0,1.550000000003E0,1.25E0));
#244=VERTEX_POINT('',#243);
#245=CARTESIAN_POINT('',(1.E-1,-1.549999999999E0,6.999999999993E-1));
#246=CARTESIAN_POINT('',(1.E-1,-1.949999999997E0,6.999999999993E-1));
#247=VERTEX_POINT('',#245);
#248=VERTEX_POINT('',#246);
#249=CARTESIAN_POINT('',(1.E-1,-1.949999999997E0,-7.000000000040E-1));
#250=VERTEX_POINT('',#249);
#251=CARTESIAN_POINT('',(1.E-1,-1.549999999999E0,-7.000000000040E-1));
#252=VERTEX_POINT('',#251);
#253=CARTESIAN_POINT('',(1.E-1,1.550000000003E0,-7.000000000040E-1));
#254=CARTESIAN_POINT('',(1.E-1,1.950000000004E0,-7.000000000040E-1));
#255=VERTEX_POINT('',#253);
#256=VERTEX_POINT('',#254);
#257=CARTESIAN_POINT('',(1.E-1,1.950000000004E0,6.999999999993E-1));
#258=VERTEX_POINT('',#257);
#259=CARTESIAN_POINT('',(1.E-1,1.550000000003E0,6.999999999993E-1));
#260=VERTEX_POINT('',#259);
#261=CARTESIAN_POINT('',(1.2E0,1.550000000003E0,-1.150000000003E0));
#262=CARTESIAN_POINT('',(1.1E0,1.550000000003E0,-1.250000000003E0));
#263=VERTEX_POINT('',#261);
#264=VERTEX_POINT('',#262);
#265=CARTESIAN_POINT('',(1.1E0,-1.549999999999E0,-1.250000000003E0));
#266=VERTEX_POINT('',#265);
#267=CARTESIAN_POINT('',(1.2E0,-1.549999999999E0,-1.150000000003E0));
#268=VERTEX_POINT('',#267);
#269=CARTESIAN_POINT('',(1.2E0,-1.549999999999E0,1.15E0));
#270=CARTESIAN_POINT('',(1.1E0,-1.549999999999E0,1.25E0));
#271=VERTEX_POINT('',#269);
#272=VERTEX_POINT('',#270);
#273=CARTESIAN_POINT('',(1.1E0,1.550000000003E0,1.25E0));
#274=VERTEX_POINT('',#273);
#275=CARTESIAN_POINT('',(1.2E0,1.550000000003E0,1.15E0));
#276=VERTEX_POINT('',#275);
#277=CARTESIAN_POINT('',(1.2E0,7.5E-1,0.E0));
#278=CARTESIAN_POINT('',(1.2E0,-7.5E-1,0.E0));
#279=VERTEX_POINT('',#277);
#280=VERTEX_POINT('',#278);
#281=CARTESIAN_POINT('',(1.5E0,6.5E-1,0.E0));
#282=CARTESIAN_POINT('',(1.5E0,-6.5E-1,0.E0));
#283=VERTEX_POINT('',#281);
#284=VERTEX_POINT('',#282);
#285=CARTESIAN_POINT('',(1.4E0,7.5E-1,0.E0));
#286=CARTESIAN_POINT('',(1.4E0,-7.5E-1,0.E0));
#287=VERTEX_POINT('',#285);
#288=VERTEX_POINT('',#286);
#289=CARTESIAN_POINT('',(0.E0,0.E0,0.E0));
#290=DIRECTION('',(1.E0,0.E0,0.E0));
#291=DIRECTION('',(0.E0,-1.E0,0.E0));
#292=AXIS2_PLACEMENT_3D('',#289,#290,#291);
#293=PLANE('',#292);
#295=ORIENTED_EDGE('',*,*,#294,.T.);
#297=ORIENTED_EDGE('',*,*,#296,.T.);
#299=ORIENTED_EDGE('',*,*,#298,.T.);
#301=ORIENTED_EDGE('',*,*,#300,.T.);
#303=ORIENTED_EDGE('',*,*,#302,.T.);
#305=ORIENTED_EDGE('',*,*,#304,.T.);
#307=ORIENTED_EDGE('',*,*,#306,.T.);
#309=ORIENTED_EDGE('',*,*,#308,.T.);
#311=ORIENTED_EDGE('',*,*,#310,.T.);
#313=ORIENTED_EDGE('',*,*,#312,.T.);
#315=ORIENTED_EDGE('',*,*,#314,.T.);
#317=ORIENTED_EDGE('',*,*,#316,.T.);
#318=EDGE_LOOP('',(#295,#297,#299,#301,#303,#305,#307,#309,#311,#313,#315,
#317));
#319=FACE_OUTER_BOUND('',#318,.F.);
#321=CARTESIAN_POINT('',(0.E0,-1.549999999999E0,1.25E0));
#322=DIRECTION('',(0.E0,-1.E0,0.E0));
#323=DIRECTION('',(0.E0,0.E0,-1.E0));
#324=AXIS2_PLACEMENT_3D('',#321,#322,#323);
#325=PLANE('',#324);
#327=ORIENTED_EDGE('',*,*,#326,.F.);
#329=ORIENTED_EDGE('',*,*,#328,.F.);
#330=ORIENTED_EDGE('',*,*,#302,.F.);
#332=ORIENTED_EDGE('',*,*,#331,.T.);
#334=ORIENTED_EDGE('',*,*,#333,.T.);
#336=ORIENTED_EDGE('',*,*,#335,.F.);
#337=ORIENTED_EDGE('',*,*,#294,.F.);
#339=ORIENTED_EDGE('',*,*,#338,.T.);
#341=ORIENTED_EDGE('',*,*,#340,.F.);
#343=ORIENTED_EDGE('',*,*,#342,.T.);
#344=EDGE_LOOP('',(#327,#329,#330,#332,#334,#336,#337,#339,#341,#343));
#345=FACE_OUTER_BOUND('',#344,.F.);
#347=CARTESIAN_POINT('',(1.1E0,-7.034039999999E0,-1.150000000003E0));
#348=DIRECTION('',(0.E0,1.E0,0.E0));
#349=DIRECTION('',(1.E0,0.E0,0.E0));
#350=AXIS2_PLACEMENT_3D('',#347,#348,#349);
#351=CYLINDRICAL_SURFACE('',#350,1.E-1);
#353=ORIENTED_EDGE('',*,*,#352,.T.);
#355=ORIENTED_EDGE('',*,*,#354,.F.);
#356=ORIENTED_EDGE('',*,*,#326,.T.);
#358=ORIENTED_EDGE('',*,*,#357,.T.);
#359=EDGE_LOOP('',(#353,#355,#356,#358));
#360=FACE_OUTER_BOUND('',#359,.F.);
#362=CARTESIAN_POINT('',(0.E0,1.550000000003E0,-1.250000000003E0));
#363=DIRECTION('',(0.E0,1.E0,0.E0));
#364=DIRECTION('',(0.E0,0.E0,1.E0));
#365=AXIS2_PLACEMENT_3D('',#362,#363,#364);
#366=PLANE('',#365);
#367=ORIENTED_EDGE('',*,*,#352,.F.);
#369=ORIENTED_EDGE('',*,*,#368,.T.);
#371=ORIENTED_EDGE('',*,*,#370,.F.);
#373=ORIENTED_EDGE('',*,*,#372,.F.);
#374=ORIENTED_EDGE('',*,*,#314,.F.);
#376=ORIENTED_EDGE('',*,*,#375,.T.);
#378=ORIENTED_EDGE('',*,*,#377,.T.);
#380=ORIENTED_EDGE('',*,*,#379,.F.);
#381=ORIENTED_EDGE('',*,*,#306,.F.);
#383=ORIENTED_EDGE('',*,*,#382,.T.);
#384=EDGE_LOOP('',(#367,#369,#371,#373,#374,#376,#378,#380,#381,#383));
#385=FACE_OUTER_BOUND('',#384,.F.);
#387=CARTESIAN_POINT('',(1.2E0,0.E0,0.E0));
#388=DIRECTION('',(1.E0,0.E0,0.E0));
#389=DIRECTION('',(0.E0,-1.E0,0.E0));
#390=AXIS2_PLACEMENT_3D('',#387,#388,#389);
#391=PLANE('',#390);
#392=ORIENTED_EDGE('',*,*,#357,.F.);
#393=ORIENTED_EDGE('',*,*,#342,.F.);
#395=ORIENTED_EDGE('',*,*,#394,.F.);
#396=ORIENTED_EDGE('',*,*,#368,.F.);
#397=EDGE_LOOP('',(#392,#393,#395,#396));
#398=FACE_OUTER_BOUND('',#397,.F.);
#400=ORIENTED_EDGE('',*,*,#399,.T.);
#402=ORIENTED_EDGE('',*,*,#401,.T.);
#403=EDGE_LOOP('',(#400,#402));
#404=FACE_BOUND('',#403,.F.);
#406=CARTESIAN_POINT('',(1.1E0,7.034040000006E0,1.15E0));
#407=DIRECTION('',(0.E0,-1.E0,0.E0));
#408=DIRECTION('',(1.E0,0.E0,0.E0));
#409=AXIS2_PLACEMENT_3D('',#406,#407,#408);
#410=CYLINDRICAL_SURFACE('',#409,1.E-1);
#411=ORIENTED_EDGE('',*,*,#340,.T.);
#413=ORIENTED_EDGE('',*,*,#412,.F.);
#414=ORIENTED_EDGE('',*,*,#370,.T.);
#415=ORIENTED_EDGE('',*,*,#394,.T.);
#416=EDGE_LOOP('',(#411,#413,#414,#415));
#417=FACE_OUTER_BOUND('',#416,.F.);
#419=CARTESIAN_POINT('',(0.E0,1.550000000003E0,1.25E0));
#420=DIRECTION('',(0.E0,0.E0,1.E0));
#421=DIRECTION('',(0.E0,-1.E0,0.E0));
#422=AXIS2_PLACEMENT_3D('',#419,#420,#421);
#423=PLANE('',#422);
#424=ORIENTED_EDGE('',*,*,#412,.T.);
#425=ORIENTED_EDGE('',*,*,#338,.F.);
#426=ORIENTED_EDGE('',*,*,#316,.F.);
#427=ORIENTED_EDGE('',*,*,#372,.T.);
#428=EDGE_LOOP('',(#424,#425,#426,#427));
#429=FACE_OUTER_BOUND('',#428,.F.);
#431=CARTESIAN_POINT('',(1.2E0,0.E0,0.E0));
#432=DIRECTION('',(1.E0,0.E0,0.E0));
#433=DIRECTION('',(0.E0,1.E0,0.E0));
#434=AXIS2_PLACEMENT_3D('',#431,#432,#433);
#435=CYLINDRICAL_SURFACE('',#434,7.5E-1);
#437=ORIENTED_EDGE('',*,*,#436,.T.);
#439=ORIENTED_EDGE('',*,*,#438,.F.);
#440=ORIENTED_EDGE('',*,*,#399,.F.);
#442=ORIENTED_EDGE('',*,*,#441,.T.);
#443=EDGE_LOOP('',(#437,#439,#440,#442));
#444=FACE_OUTER_BOUND('',#443,.F.);
#446=CARTESIAN_POINT('',(1.4E0,0.E0,0.E0));
#447=DIRECTION('',(1.E0,0.E0,0.E0));
#448=DIRECTION('',(0.E0,9.999501720968E-1,-9.982651128790E-3));
#449=AXIS2_PLACEMENT_3D('',#446,#447,#448);
#450=TOROIDAL_SURFACE('',#449,6.5E-1,1.E-1);
#452=ORIENTED_EDGE('',*,*,#451,.T.);
#454=ORIENTED_EDGE('',*,*,#453,.T.);
#455=ORIENTED_EDGE('',*,*,#436,.F.);
#457=ORIENTED_EDGE('',*,*,#456,.F.);
#458=EDGE_LOOP('',(#452,#454,#455,#457));
#459=FACE_OUTER_BOUND('',#458,.F.);
#461=CARTESIAN_POINT('',(1.5E0,0.E0,0.E0));
#462=DIRECTION('',(1.E0,0.E0,0.E0));
#463=DIRECTION('',(0.E0,1.E0,0.E0));
#464=AXIS2_PLACEMENT_3D('',#461,#462,#463);
#465=PLANE('',#464);
#466=ORIENTED_EDGE('',*,*,#451,.F.);
#468=ORIENTED_EDGE('',*,*,#467,.F.);
#469=EDGE_LOOP('',(#466,#468));
#470=FACE_OUTER_BOUND('',#469,.F.);
#472=CARTESIAN_POINT('',(1.4E0,0.E0,0.E0));
#473=DIRECTION('',(1.E0,0.E0,0.E0));
#474=DIRECTION('',(0.E0,-9.999501720968E-1,9.982651128791E-3));
#475=AXIS2_PLACEMENT_3D('',#472,#473,#474);
#476=TOROIDAL_SURFACE('',#475,6.5E-1,1.E-1);
#477=ORIENTED_EDGE('',*,*,#467,.T.);
#478=ORIENTED_EDGE('',*,*,#456,.T.);
#480=ORIENTED_EDGE('',*,*,#479,.F.);
#481=ORIENTED_EDGE('',*,*,#453,.F.);
#482=EDGE_LOOP('',(#477,#478,#480,#481));
#483=FACE_OUTER_BOUND('',#482,.F.);
#485=CARTESIAN_POINT('',(1.2E0,0.E0,0.E0));
#486=DIRECTION('',(1.E0,0.E0,0.E0));
#487=DIRECTION('',(0.E0,1.E0,0.E0));
#488=AXIS2_PLACEMENT_3D('',#485,#486,#487);
#489=CYLINDRICAL_SURFACE('',#488,7.5E-1);
#490=ORIENTED_EDGE('',*,*,#479,.T.);
#491=ORIENTED_EDGE('',*,*,#441,.F.);
#492=ORIENTED_EDGE('',*,*,#401,.F.);
#493=ORIENTED_EDGE('',*,*,#438,.T.);
#494=EDGE_LOOP('',(#490,#491,#492,#493));
#495=FACE_OUTER_BOUND('',#494,.F.);
#497=CARTESIAN_POINT('',(0.E0,1.950000000004E0,6.999999999993E-1));
#498=DIRECTION('',(0.E0,0.E0,1.E0));
#499=DIRECTION('',(0.E0,-1.E0,0.E0));
#500=AXIS2_PLACEMENT_3D('',#497,#498,#499);
#501=PLANE('',#500);
#503=ORIENTED_EDGE('',*,*,#502,.T.);
#504=ORIENTED_EDGE('',*,*,#375,.F.);
#505=ORIENTED_EDGE('',*,*,#312,.F.);
#507=ORIENTED_EDGE('',*,*,#506,.T.);
#508=EDGE_LOOP('',(#503,#504,#505,#507));
#509=FACE_OUTER_BOUND('',#508,.F.);
#511=CARTESIAN_POINT('',(1.E-1,0.E0,0.E0));
#512=DIRECTION('',(1.E0,0.E0,0.E0));
#513=DIRECTION('',(0.E0,-1.E0,0.E0));
#514=AXIS2_PLACEMENT_3D('',#511,#512,#513);
#515=PLANE('',#514);
#517=ORIENTED_EDGE('',*,*,#516,.F.);
#518=ORIENTED_EDGE('',*,*,#333,.F.);
#520=ORIENTED_EDGE('',*,*,#519,.F.);
#522=ORIENTED_EDGE('',*,*,#521,.F.);
#523=EDGE_LOOP('',(#517,#518,#520,#522));
#524=FACE_OUTER_BOUND('',#523,.F.);
#526=CARTESIAN_POINT('',(1.E-1,0.E0,0.E0));
#527=DIRECTION('',(1.E0,0.E0,0.E0));
#528=DIRECTION('',(0.E0,-1.E0,0.E0));
#529=AXIS2_PLACEMENT_3D('',#526,#527,#528);
#530=PLANE('',#529);
#532=ORIENTED_EDGE('',*,*,#531,.F.);
#533=ORIENTED_EDGE('',*,*,#377,.F.);
#534=ORIENTED_EDGE('',*,*,#502,.F.);
#536=ORIENTED_EDGE('',*,*,#535,.F.);
#537=EDGE_LOOP('',(#532,#533,#534,#536));
#538=FACE_OUTER_BOUND('',#537,.F.);
#540=CARTESIAN_POINT('',(0.E0,-1.549999999999E0,6.999999999993E-1));
#541=DIRECTION('',(0.E0,0.E0,1.E0));
#542=DIRECTION('',(0.E0,-1.E0,0.E0));
#543=AXIS2_PLACEMENT_3D('',#540,#541,#542);
#544=PLANE('',#543);
#545=ORIENTED_EDGE('',*,*,#516,.T.);
#547=ORIENTED_EDGE('',*,*,#546,.F.);
#548=ORIENTED_EDGE('',*,*,#296,.F.);
#549=ORIENTED_EDGE('',*,*,#335,.T.);
#550=EDGE_LOOP('',(#545,#547,#548,#549));
#551=FACE_OUTER_BOUND('',#550,.F.);
#553=CARTESIAN_POINT('',(0.E0,-1.949999999997E0,6.999999999993E-1));
#554=DIRECTION('',(0.E0,-1.E0,0.E0));
#555=DIRECTION('',(0.E0,0.E0,-1.E0));
#556=AXIS2_PLACEMENT_3D('',#553,#554,#555);
#557=PLANE('',#556);
#558=ORIENTED_EDGE('',*,*,#521,.T.);
#560=ORIENTED_EDGE('',*,*,#559,.F.);
#561=ORIENTED_EDGE('',*,*,#298,.F.);
#562=ORIENTED_EDGE('',*,*,#546,.T.);
#563=EDGE_LOOP('',(#558,#560,#561,#562));
#564=FACE_OUTER_BOUND('',#563,.F.);
#566=CARTESIAN_POINT('',(0.E0,-1.949999999997E0,-7.000000000040E-1));
#567=DIRECTION('',(0.E0,0.E0,-1.E0));
#568=DIRECTION('',(0.E0,1.E0,0.E0));
#569=AXIS2_PLACEMENT_3D('',#566,#567,#568);
#570=PLANE('',#569);
#571=ORIENTED_EDGE('',*,*,#519,.T.);
#572=ORIENTED_EDGE('',*,*,#331,.F.);
#573=ORIENTED_EDGE('',*,*,#300,.F.);
#574=ORIENTED_EDGE('',*,*,#559,.T.);
#575=EDGE_LOOP('',(#571,#572,#573,#574));
#576=FACE_OUTER_BOUND('',#575,.F.);
#578=CARTESIAN_POINT('',(0.E0,1.550000000003E0,-7.000000000040E-1));
#579=DIRECTION('',(0.E0,0.E0,-1.E0));
#580=DIRECTION('',(0.E0,1.E0,0.E0));
#581=AXIS2_PLACEMENT_3D('',#578,#579,#580);
#582=PLANE('',#581);
#583=ORIENTED_EDGE('',*,*,#531,.T.);
#585=ORIENTED_EDGE('',*,*,#584,.F.);
#586=ORIENTED_EDGE('',*,*,#308,.F.);
#587=ORIENTED_EDGE('',*,*,#379,.T.);
#588=EDGE_LOOP('',(#583,#585,#586,#587));
#589=FACE_OUTER_BOUND('',#588,.F.);
#591=CARTESIAN_POINT('',(0.E0,1.950000000004E0,-7.000000000040E-1));
#592=DIRECTION('',(0.E0,1.E0,0.E0));
#593=DIRECTION('',(0.E0,0.E0,1.E0));
#594=AXIS2_PLACEMENT_3D('',#591,#592,#593);
#595=PLANE('',#594);
#596=ORIENTED_EDGE('',*,*,#535,.T.);
#597=ORIENTED_EDGE('',*,*,#506,.F.);
#598=ORIENTED_EDGE('',*,*,#310,.F.);
#599=ORIENTED_EDGE('',*,*,#584,.T.);
#600=EDGE_LOOP('',(#596,#597,#598,#599));
#601=FACE_OUTER_BOUND('',#600,.F.);
#603=CARTESIAN_POINT('',(0.E0,-1.549999999999E0,-1.250000000003E0));
#604=DIRECTION('',(0.E0,0.E0,-1.E0));
#605=DIRECTION('',(0.E0,1.E0,0.E0));
#606=AXIS2_PLACEMENT_3D('',#603,#604,#605);
#607=PLANE('',#606);
#608=ORIENTED_EDGE('',*,*,#354,.T.);
#609=ORIENTED_EDGE('',*,*,#382,.F.);
#610=ORIENTED_EDGE('',*,*,#304,.F.);
#611=ORIENTED_EDGE('',*,*,#328,.T.);
#612=EDGE_LOOP('',(#608,#609,#610,#611));
#613=FACE_OUTER_BOUND('',#612,.F.);
#615=CLOSED_SHELL('',(#320,#346,#361,#386,#405,#418,#430,#445,#460,#471,#484,
#496,#510,#525,#539,#552,#565,#577,#590,#602,#614));
#616=MANIFOLD_SOLID_BREP('',#615);
#618=DIMENSIONAL_EXPONENTS(0.E0,0.E0,0.E0,0.E0,0.E0,0.E0,0.E0);
#620=PLANE_ANGLE_MEASURE_WITH_UNIT(PLANE_ANGLE_MEASURE(1.745329251994E-2),#619);
#621=(CONVERSION_BASED_UNIT('DEGREE',#620)NAMED_UNIT(*)PLANE_ANGLE_UNIT());
#623=UNCERTAINTY_MEASURE_WITH_UNIT(LENGTH_MEASURE(4.869096757918E-4),#617,
'closure',
'Maximum model space distance between geometric entities at asserted connectivities');
#626=APPLICATION_CONTEXT(
'CONFIGURATION CONTROLLED 3D DESIGNS OF MECHANICAL PARTS AND ASSEMBLIES');
#627=APPLICATION_PROTOCOL_DEFINITION('international standard',
'config_control_design',1994,#626);
#628=DESIGN_CONTEXT('',#626,'design');
#629=MECHANICAL_CONTEXT('',#626,'mechanical');
#630=PRODUCT('PRT0003','PRT0003','NOT SPECIFIED',(#629));
#631=PRODUCT_DEFINITION_FORMATION_WITH_SPECIFIED_SOURCE('1','LAST_VERSION',#630,
.MADE.);
#635=PRODUCT_CATEGORY('part','');
#636=PRODUCT_RELATED_PRODUCT_CATEGORY('detail','',(#630));
#637=PRODUCT_CATEGORY_RELATIONSHIP('','',#635,#636);
#638=SECURITY_CLASSIFICATION_LEVEL('unclassified');
#639=SECURITY_CLASSIFICATION('','',#638);
#640=CC_DESIGN_SECURITY_CLASSIFICATION(#639,(#631));
#641=APPROVAL_STATUS('approved');
#642=APPROVAL(#641,'');
#643=CC_DESIGN_APPROVAL(#642,(#639,#631,#632));
#644=CALENDAR_DATE(125,22,9);
#645=COORDINATED_UNIVERSAL_TIME_OFFSET(8,0,.AHEAD.);
#646=LOCAL_TIME(10,30,4.7E1,#645);
#647=DATE_AND_TIME(#644,#646);
#648=APPROVAL_DATE_TIME(#647,#642);
#649=DATE_TIME_ROLE('creation_date');
#650=CC_DESIGN_DATE_AND_TIME_ASSIGNMENT(#647,#649,(#632));
#651=DATE_TIME_ROLE('classification_date');
#652=CC_DESIGN_DATE_AND_TIME_ASSIGNMENT(#647,#651,(#639));
#653=PERSON('UNSPECIFIED','UNSPECIFIED',$,$,$,$);
#654=ORGANIZATION('UNSPECIFIED','UNSPECIFIED','UNSPECIFIED');
#655=PERSON_AND_ORGANIZATION(#653,#654);
#656=APPROVAL_ROLE('approver');
#657=APPROVAL_PERSON_ORGANIZATION(#655,#642,#656);
#658=PERSON_AND_ORGANIZATION_ROLE('creator');
#659=CC_DESIGN_PERSON_AND_ORGANIZATION_ASSIGNMENT(#655,#658,(#631,#632));
#660=PERSON_AND_ORGANIZATION_ROLE('design_supplier');
#661=CC_DESIGN_PERSON_AND_ORGANIZATION_ASSIGNMENT(#655,#660,(#631));
#662=PERSON_AND_ORGANIZATION_ROLE('classification_officer');
#663=CC_DESIGN_PERSON_AND_ORGANIZATION_ASSIGNMENT(#655,#662,(#639));
#664=PERSON_AND_ORGANIZATION_ROLE('design_owner');
#665=CC_DESIGN_PERSON_AND_ORGANIZATION_ASSIGNMENT(#655,#664,(#630));
#53=CIRCLE('',#52,1.E-1);
#66=CIRCLE('',#65,1.E-1);
#75=CIRCLE('',#74,1.E-1);
#84=CIRCLE('',#83,1.E-1);
#105=CIRCLE('',#104,7.5E-1);
#110=CIRCLE('',#109,7.5E-1);
#123=CIRCLE('',#122,7.5E-1);
#132=CIRCLE('',#131,1.E-1);
#137=CIRCLE('',#136,6.5E-1);
#142=CIRCLE('',#141,6.5E-1);
#147=CIRCLE('',#146,1.E-1);
#152=CIRCLE('',#151,7.5E-1);
#294=EDGE_CURVE('',#223,#224,#4,.T.);
#296=EDGE_CURVE('',#224,#226,#8,.T.);
#298=EDGE_CURVE('',#226,#228,#12,.T.);
#300=EDGE_CURVE('',#228,#230,#16,.T.);
#302=EDGE_CURVE('',#230,#232,#20,.T.);
#304=EDGE_CURVE('',#232,#234,#24,.T.);
#306=EDGE_CURVE('',#234,#236,#28,.T.);
#308=EDGE_CURVE('',#236,#238,#32,.T.);
#310=EDGE_CURVE('',#238,#240,#36,.T.);
#312=EDGE_CURVE('',#240,#242,#40,.T.);
#314=EDGE_CURVE('',#242,#244,#44,.T.);
#316=EDGE_CURVE('',#244,#223,#48,.T.);
#320=ADVANCED_FACE('',(#319),#293,.F.);
#326=EDGE_CURVE('',#266,#268,#53,.T.);
#328=EDGE_CURVE('',#232,#266,#220,.T.);
#331=EDGE_CURVE('',#230,#252,#57,.T.);
#333=EDGE_CURVE('',#252,#247,#168,.T.);
#335=EDGE_CURVE('',#224,#247,#180,.T.);
#338=EDGE_CURVE('',#223,#272,#61,.T.);
#340=EDGE_CURVE('',#271,#272,#66,.T.);
#342=EDGE_CURVE('',#271,#268,#70,.T.);
#346=ADVANCED_FACE('',(#345),#325,.T.);
#352=EDGE_CURVE('',#263,#264,#75,.T.);
#354=EDGE_CURVE('',#266,#264,#216,.T.);
#357=EDGE_CURVE('',#268,#263,#96,.T.);
#361=ADVANCED_FACE('',(#360),#351,.T.);
#368=EDGE_CURVE('',#263,#276,#79,.T.);
#370=EDGE_CURVE('',#274,#276,#84,.T.);
#372=EDGE_CURVE('',#244,#274,#118,.T.);
#375=EDGE_CURVE('',#242,#260,#88,.T.);
#377=EDGE_CURVE('',#260,#255,#172,.T.);
#379=EDGE_CURVE('',#236,#255,#204,.T.);
#382=EDGE_CURVE('',#234,#264,#92,.T.);
#386=ADVANCED_FACE('',(#385),#366,.T.);
#394=EDGE_CURVE('',#276,#271,#100,.T.);
#399=EDGE_CURVE('',#279,#280,#105,.T.);
#401=EDGE_CURVE('',#280,#279,#110,.T.);
#405=ADVANCED_FACE('',(#398,#404),#391,.T.);
#412=EDGE_CURVE('',#274,#272,#114,.T.);
#418=ADVANCED_FACE('',(#417),#410,.T.);
#430=ADVANCED_FACE('',(#429),#423,.T.);
#436=EDGE_CURVE('',#287,#288,#123,.T.);
#438=EDGE_CURVE('',#280,#288,#156,.T.);
#441=EDGE_CURVE('',#279,#287,#127,.T.);
#445=ADVANCED_FACE('',(#444),#435,.T.);
#451=EDGE_CURVE('',#283,#284,#137,.T.);
#453=EDGE_CURVE('',#284,#288,#147,.T.);
#456=EDGE_CURVE('',#283,#287,#132,.T.);
#460=ADVANCED_FACE('',(#459),#450,.T.);
#467=EDGE_CURVE('',#284,#283,#142,.T.);
#471=ADVANCED_FACE('',(#470),#465,.T.);
#479=EDGE_CURVE('',#288,#287,#152,.T.);
#484=ADVANCED_FACE('',(#483),#476,.T.);
#496=ADVANCED_FACE('',(#495),#489,.T.);
#502=EDGE_CURVE('',#258,#260,#160,.T.);
#506=EDGE_CURVE('',#240,#258,#164,.T.);
#510=ADVANCED_FACE('',(#509),#501,.T.);
#516=EDGE_CURVE('',#247,#248,#176,.T.);
#519=EDGE_CURVE('',#250,#252,#192,.T.);
#521=EDGE_CURVE('',#248,#250,#184,.T.);
#525=ADVANCED_FACE('',(#524),#515,.T.);
#531=EDGE_CURVE('',#255,#256,#200,.T.);
#535=EDGE_CURVE('',#256,#258,#208,.T.);
#539=ADVANCED_FACE('',(#538),#530,.T.);
#546=EDGE_CURVE('',#226,#248,#188,.T.);
#552=ADVANCED_FACE('',(#551),#544,.T.);
#559=EDGE_CURVE('',#228,#250,#196,.T.);
#565=ADVANCED_FACE('',(#564),#557,.T.);
#577=ADVANCED_FACE('',(#576),#570,.T.);
#584=EDGE_CURVE('',#238,#256,#212,.T.);
#590=ADVANCED_FACE('',(#589),#582,.T.);
#602=ADVANCED_FACE('',(#601),#595,.T.);
#614=ADVANCED_FACE('',(#613),#607,.T.);
#617=(LENGTH_UNIT()NAMED_UNIT(*)SI_UNIT(.MILLI.,.METRE.));
#619=(NAMED_UNIT(*)PLANE_ANGLE_UNIT()SI_UNIT($,.RADIAN.));
#622=(NAMED_UNIT(*)SI_UNIT($,.STERADIAN.)SOLID_ANGLE_UNIT());
#624=(GEOMETRIC_REPRESENTATION_CONTEXT(3)GLOBAL_UNCERTAINTY_ASSIGNED_CONTEXT((
#623))GLOBAL_UNIT_ASSIGNED_CONTEXT((#617,#621,#622))REPRESENTATION_CONTEXT
('ID1','3'));
#625=ADVANCED_BREP_SHAPE_REPRESENTATION('',(#616),#624);
#632=PRODUCT_DEFINITION('design','',#631,#628);
#633=PRODUCT_DEFINITION_SHAPE('','SHAPE FOR PRT0003.',#632);
#634=SHAPE_DEFINITION_REPRESENTATION(#633,#625);
ENDSEC;
END-ISO-10303-21;
